  0
SECTION
  2
HEADER
  9
$ACADVER
  1
AC1009
  9
$INSBASE
 10
0.0
 20
0.0
 30
0.0
  9
$EXTMIN
 10
0.0
 20
0.0
 30
0.0
  9
$EXTMAX
 10
0.0
 20
0.0
 30
0.0
  0
ENDSEC
  0
SECTION
  2
TABLES
  0
TABLE
  2
VPORT
 70
0
  0
ENDTAB
  0
TABLE
  2
LTYPE
 70
1
  0
LTYPE
  2
CONTINUOUS
 70
0
  3
Solid line
 72
65
 73
0
 40
0.0
  0
ENDTAB
  0
TABLE
  2
LAYER
 70
1
  0
LAYER
  2
0
 70
64
 62
7
  6
continuous
  0
ENDTAB
  0
TABLE
  2
STYLE
 70
1
  0
STYLE
  2
STANDARD
 70
0
 40
0
 41
1.0
 50
0.0
 71
0
 42
1
 3
ARIAL.TTF
 4

  0
ENDTAB
  0
TABLE
  2
VIEW
 70
0
  0
ENDTAB
  0
ENDSEC
  0
SECTION
  2
BLOCKS
  0
BLOCK
  8
0
  2
CUT003_CS
 70
0
 10
0.0
 20
0.0
 30
0.0
  3
CUT003_CS
  0
POLYLINE
  8
0
 62
0
 70
1
 66
1
 10
0.0
 20
0.0
 30
0.0
  0
VERTEX
  8
0
 10
175.0
 20
105.0
 30
2.0
  0
VERTEX
  8
0
 10
171.0
 20
105.0
 30
2.0
  0
VERTEX
  8
0
 10
171.0
 20
58.6858614307
 30
2.0
  0
VERTEX
  8
0
 10
175.0
 20
58.6858614307
 30
2.0
  0
VERTEX
  8
0
 10
175.0
 20
12.3717228614
 30
2.0
  0
VERTEX
  8
0
 10
171.0
 20
12.3717228614
 30
2.0
  0
VERTEX
  8
0
 10
171.0
 20
-33.9424157079
 30
2.0
  0
VERTEX
  8
0
 10
175.0
 20
-33.9424157079
 30
2.0
  0
VERTEX
  8
0
 10
175.0
 20
-80.2565542772
 30
2.0
  0
VERTEX
  8
0
 10
171.0
 20
-80.2565542772
 30
2.0
  0
VERTEX
  8
0
 10
171.0
 20
-105.0
 30
2.0
  0
VERTEX
  8
0
 10
175.0
 20
-105.0
 30
2.0
  0
VERTEX
  8
0
 10
175.0
 20
-125.0
 30
2.0
  0
VERTEX
  8
0
 10
-175.0
 20
-125.0
 30
2.0
  0
VERTEX
  8
0
 10
-175.0
 20
-105.0
 30
2.0
  0
VERTEX
  8
0
 10
-171.0
 20
-105.0
 30
2.0
  0
VERTEX
  8
0
 10
-171.0
 20
-63.0
 30
2.0
  0
VERTEX
  8
0
 10
-175.0
 20
-63.0
 30
2.0
  0
VERTEX
  8
0
 10
-175.0
 20
-21.0
 30
2.0
  0
VERTEX
  8
0
 10
-171.0
 20
-21.0
 30
2.0
  0
VERTEX
  8
0
 10
-171.0
 20
21.0
 30
2.0
  0
VERTEX
  8
0
 10
-175.0
 20
21.0
 30
2.0
  0
VERTEX
  8
0
 10
-175.0
 20
63.0
 30
2.0
  0
VERTEX
  8
0
 10
-171.0
 20
63.0
 30
2.0
  0
VERTEX
  8
0
 10
-171.0
 20
105.0
 30
2.0
  0
VERTEX
  8
0
 10
-175.0
 20
105.0
 30
2.0
  0
VERTEX
  8
0
 10
-175.0
 20
125.0
 30
2.0
  0
VERTEX
  8
0
 10
175.0
 20
125.0
 30
2.0
  0
SEQEND
  8
0
  0
POLYLINE
  8
0
 62
0
 70
1
 66
1
 10
0.0
 20
0.0
 30
0.0
  0
VERTEX
  8
0
 10
160.0
 20
-70.5
 30
2.0
  0
VERTEX
  8
0
 10
-160.0
 20
-70.5
 30
2.0
  0
VERTEX
  8
0
 10
-160.0
 20
-82.5
 30
2.0
  0
VERTEX
  8
0
 10
160.0
 20
-82.5
 30
2.0
  0
SEQEND
  8
0
  0
POLYLINE
  8
0
 62
0
 70
1
 66
1
 10
0.0
 20
0.0
 30
0.0
  0
VERTEX
  8
0
 10
160.0
 20
6.0
 30
2.0
  0
VERTEX
  8
0
 10
-160.0
 20
6.0
 30
2.0
  0
VERTEX
  8
0
 10
-160.0
 20
-6.0
 30
2.0
  0
VERTEX
  8
0
 10
160.0
 20
-6.0
 30
2.0
  0
SEQEND
  8
0
  0
POLYLINE
  8
0
 62
0
 70
1
 66
1
 10
0.0
 20
0.0
 30
0.0
  0
VERTEX
  8
0
 10
-160.0
 20
70.5
 30
2.0
  0
VERTEX
  8
0
 10
160.0
 20
70.5
 30
2.0
  0
VERTEX
  8
0
 10
160.0
 20
82.5
 30
2.0
  0
VERTEX
  8
0
 10
-160.0
 20
82.5
 30
2.0
  0
SEQEND
  8
0
  0
ENDBLK
  0
BLOCK
  8
0
  2
CUT_CS001
 70
0
 10
0.0
 20
0.0
 30
0.0
  3
CUT_CS001
  0
POLYLINE
  8
0
 62
0
 70
1
 66
1
 10
0.0
 20
0.0
 30
0.0
  0
VERTEX
  8
0
 10
254.0
 20
105.0
 30
173.0
  0
VERTEX
  8
0
 10
250.0
 20
105.0
 30
173.0
  0
VERTEX
  8
0
 10
250.0
 20
63.0
 30
173.0
  0
VERTEX
  8
0
 10
254.0
 20
63.0
 30
173.0
  0
VERTEX
  8
0
 10
254.0
 20
21.0
 30
173.0
  0
VERTEX
  8
0
 10
250.0
 20
21.0
 30
173.0
  0
VERTEX
  8
0
 10
250.0
 20
-21.0
 30
173.0
  0
VERTEX
  8
0
 10
254.0
 20
-21.0
 30
173.0
  0
VERTEX
  8
0
 10
254.0
 20
-63.0
 30
173.0
  0
VERTEX
  8
0
 10
250.0
 20
-63.0
 30
173.0
  0
VERTEX
  8
0
 10
250.0
 20
-105.0
 30
173.0
  0
VERTEX
  8
0
 10
254.0
 20
-105.0
 30
173.0
  0
VERTEX
  8
0
 10
254.0
 20
-125.0
 30
173.0
  0
VERTEX
  8
0
 10
574.449784277
 20
-38.8860447477
 30
173.0
 42
0.766749733618
  0
VERTEX
  8
0
 10
574.449784277
 20
38.8860447476
 30
173.0
  0
VERTEX
  8
0
 10
254.0
 20
125.0
 30
173.0
  0
SEQEND
  8
0
  0
POLYLINE
  8
0
 62
0
 70
1
 66
1
 10
0.0
 20
0.0
 30
0.0
  0
VERTEX
  8
0
 10
274.0
 20
99.6254321596
 30
173.0
  0
VERTEX
  8
0
 10
554.0
 20
24.3814823938
 30
173.0
  0
VERTEX
  8
0
 10
554.0
 20
-24.3814823938
 30
173.0
  0
VERTEX
  8
0
 10
274.0
 20
-99.6254321596
 30
173.0
  0
SEQEND
  8
0
  0
POLYLINE
  8
0
 62
0
 70
1
 66
1
 10
0.0
 20
0.0
 30
0.0
  0
VERTEX
  8
0
 10
566.0
 20
-21.1567416896
 30
173.0
  0
VERTEX
  8
0
 10
566.0
 20
21.1567416896
 30
173.0
  0
VERTEX
  8
0
 10
569.437199956
 20
20.2330684723
 30
173.0
 42
-0.766749733619
  0
VERTEX
  8
0
 10
569.437199956
 20
-20.2330684723
 30
173.0
  0
SEQEND
  8
0
  0
POLYLINE
  8
0
 62
0
 70
1
 66
1
 10
0.0
 20
0.0
 30
0.0
  0
VERTEX
  8
0
 10
562.0
 20
-15.0
 30
173.0
  0
VERTEX
  8
0
 10
558.0
 20
-15.0
 30
173.0
  0
VERTEX
  8
0
 10
558.0
 20
-5.0
 30
173.0
  0
VERTEX
  8
0
 10
562.0
 20
-5.0
 30
173.0
  0
SEQEND
  8
0
  0
POLYLINE
  8
0
 62
0
 70
1
 66
1
 10
0.0
 20
0.0
 30
0.0
  0
VERTEX
  8
0
 10
562.0
 20
5.0
 30
173.0
  0
VERTEX
  8
0
 10
558.0
 20
5.0
 30
173.0
  0
VERTEX
  8
0
 10
558.0
 20
15.0
 30
173.0
  0
VERTEX
  8
0
 10
562.0
 20
15.0
 30
173.0
  0
SEQEND
  8
0
  0
ENDBLK
  0
BLOCK
  8
0
  2
CUT001_CS001
 70
0
 10
0.0
 20
0.0
 30
0.0
  3
CUT001_CS001
  0
POLYLINE
  8
0
 62
0
 70
1
 66
1
 10
0.0
 20
0.0
 30
0.0
  0
VERTEX
  8
0
 10
-546.0
 20
105.0
 30
-173.0
  0
VERTEX
  8
0
 10
-550.0
 20
105.0
 30
-173.0
  0
VERTEX
  8
0
 10
-550.0
 20
58.6858614307
 30
-173.0
  0
VERTEX
  8
0
 10
-546.0
 20
58.6858614307
 30
-173.0
  0
VERTEX
  8
0
 10
-546.0
 20
12.3717228614
 30
-173.0
  0
VERTEX
  8
0
 10
-550.0
 20
12.3717228614
 30
-173.0
  0
VERTEX
  8
0
 10
-550.0
 20
-33.9424157079
 30
-173.0
  0
VERTEX
  8
0
 10
-546.0
 20
-33.9424157079
 30
-173.0
  0
VERTEX
  8
0
 10
-546.0
 20
-80.2565542772
 30
-173.0
  0
VERTEX
  8
0
 10
-550.0
 20
-80.2565542772
 30
-173.0
  0
VERTEX
  8
0
 10
-550.0
 20
-105.0
 30
-173.0
  0
VERTEX
  8
0
 10
-546.0
 20
-105.0
 30
-173.0
  0
VERTEX
  8
0
 10
-546.0
 20
-125.0
 30
-173.0
  0
VERTEX
  8
0
 10
-225.550215723
 20
-38.8860447477
 30
-173.0
 42
0.766749733618
  0
VERTEX
  8
0
 10
-225.550215723
 20
38.8860447476
 30
-173.0
  0
VERTEX
  8
0
 10
-546.0
 20
125.0
 30
-173.0
  0
SEQEND
  8
0
  0
CIRCLE
  8
0
 62
0
 10
-538.5
 20
24.0
 30
-173.0
 40
2.0
  0
CIRCLE
  8
0
 62
0
 10
-477.5
 20
24.0
 30
-173.0
 40
2.0
  0
CIRCLE
  8
0
 62
0
 10
-538.5
 20
-24.0
 30
-173.0
 40
2.0
  0
CIRCLE
  8
0
 62
0
 10
-477.5
 20
-24.0
 30
-173.0
 40
2.0
  0
POLYLINE
  8
0
 62
0
 70
1
 66
1
 10
0.0
 20
0.0
 30
0.0
  0
VERTEX
  8
0
 10
-242.0
 20
5.0
 30
-173.0
  0
VERTEX
  8
0
 10
-238.0
 20
5.0
 30
-173.0
  0
VERTEX
  8
0
 10
-238.0
 20
15.0
 30
-173.0
  0
VERTEX
  8
0
 10
-242.0
 20
15.0
 30
-173.0
  0
SEQEND
  8
0
  0
POLYLINE
  8
0
 62
0
 70
1
 66
1
 10
0.0
 20
0.0
 30
0.0
  0
VERTEX
  8
0
 10
-242.0
 20
-15.0
 30
-173.0
  0
VERTEX
  8
0
 10
-238.0
 20
-15.0
 30
-173.0
  0
VERTEX
  8
0
 10
-238.0
 20
-5.0
 30
-173.0
  0
VERTEX
  8
0
 10
-242.0
 20
-5.0
 30
-173.0
  0
SEQEND
  8
0
  0
POLYLINE
  8
0
 62
0
 70
1
 66
1
 10
0.0
 20
0.0
 30
0.0
  0
VERTEX
  8
0
 10
-466.0
 20
83.5017286383
 30
-173.0
  0
VERTEX
  8
0
 10
-246.0
 20
24.3814823936
 30
-173.0
  0
VERTEX
  8
0
 10
-246.0
 20
-24.3814823936
 30
-173.0
  0
VERTEX
  8
0
 10
-466.0
 20
-83.5017286383
 30
-173.0
  0
SEQEND
  8
0
  0
POLYLINE
  8
0
 62
0
 70
1
 66
1
 10
0.0
 20
0.0
 30
0.0
  0
VERTEX
  8
0
 10
-234.0
 20
-21.1567416894
 30
-173.0
  0
VERTEX
  8
0
 10
-234.0
 20
21.1567416894
 30
-173.0
  0
VERTEX
  8
0
 10
-230.562800044
 20
20.2330684721
 30
-173.0
 42
-0.766749733618
  0
VERTEX
  8
0
 10
-230.562800044
 20
-20.2330684721
 30
-173.0
  0
SEQEND
  8
0
  0
ENDBLK
  0
ENDSEC
  0
SECTION
  2
ENTITIES
  0
INSERT
  2
CUT003_CS
  8
0
 62
0
 10
0.0
 20
0.0
 30
0.0
  0
INSERT
  2
CUT_CS001
  8
0
 62
0
 10
0.0
 20
0.0
 30
0.0
  0
POLYLINE
  8
0
 62
0
 70
1
 66
1
 10
0.0
 20
0.0
 30
0.0
  0
VERTEX
  8
0
 10
171.0
 20
225.0
 30
308.0
  0
VERTEX
  8
0
 10
171.0
 20
215.0
 30
308.0
  0
VERTEX
  8
0
 10
175.0
 20
215.0
 30
308.0
  0
VERTEX
  8
0
 10
175.0
 20
205.0
 30
308.0
  0
VERTEX
  8
0
 10
171.0
 20
205.0
 30
308.0
  0
VERTEX
  8
0
 10
171.0
 20
195.0
 30
308.0
  0
VERTEX
  8
0
 10
175.0
 20
195.0
 30
308.0
  0
VERTEX
  8
0
 10
175.0
 20
185.0
 30
308.0
  0
VERTEX
  8
0
 10
171.0
 20
185.0
 30
308.0
  0
VERTEX
  8
0
 10
171.0
 20
175.0
 30
308.0
  0
VERTEX
  8
0
 10
-171.0
 20
175.0
 30
308.0
  0
VERTEX
  8
0
 10
-171.0
 20
185.0
 30
308.0
  0
VERTEX
  8
0
 10
-175.0
 20
185.0
 30
308.0
  0
VERTEX
  8
0
 10
-175.0
 20
195.0
 30
308.0
  0
VERTEX
  8
0
 10
-171.0
 20
195.0
 30
308.0
  0
VERTEX
  8
0
 10
-171.0
 20
205.0
 30
308.0
  0
VERTEX
  8
0
 10
-175.0
 20
205.0
 30
308.0
  0
VERTEX
  8
0
 10
-175.0
 20
215.0
 30
308.0
  0
VERTEX
  8
0
 10
-171.0
 20
215.0
 30
308.0
  0
VERTEX
  8
0
 10
-171.0
 20
225.0
 30
308.0
  0
SEQEND
  8
0
  0
INSERT
  2
CUT001_CS001
  8
0
 62
0
 10
0.0
 20
0.0
 30
0.0
  0
ENDSEC
  0
EOF
